Říjen 2007

Nový český AM web

24. října 2007 v 15:53 | Martin Novák
Narazil jsem na nový český web (spíše estranky), vypadá velmi dobře, tak kdo o něm ještě neví, můžete ho zhlédnout zde: http://www.arcticmonkeys.estranky.cz.

Pokud má autor(ka) zájem, může představit stránky sám(sama), budu jen rád.

Whatever People Say I Am, That's What I'm Not vs. Favourite Worst Nightmare

20. října 2007 v 19:26 | Martin Novák |  Ankety
Jelikož už uplynula nějaká doba od vydání druhé desky - Favourite Worst Nightmare, tak jsem se rozhodl, že sem dám anketu o to, která deska je lepší, povedenější, nebo prostě kterou máte radši. Jsem zvědavý jak to dopadne, jelikož chci aby ste se rozhodli pro jednu určitou, tak nedávám možnost - obě jsou stejně dobré. Osobně mi přijde lepší deska druhá, tak co myslíte vy? :)

(anketa se zobrazí kliknutím na nadpis)


Do me a Favour - Udělej mi laskavost

17. října 2007 v 0:01 | Clementine |  Překlady
Takže, ráno bylo dokonáno,
na volantu byly slzy, odkapávající na sedadlo,
pár hodin nebo pár týdnů,
troufám si říct, že obojí je stejně skličující,

je to začátek konce, auto vyjelo na kopec
a zmizelo v zatáčce, zeptejte se kohokoli, poví vám to samý,
v téhle době to všechno spěje tímhle směrem,
všechno se rozpadá, všechno se hroutí,
oh, neztrať svoje srdce

Udělej mi laskavost a zlom mi nos...
udělej mi laskavost a řekni mi, ať už jdu...
udělej mi laskavost a přestaň se ptát...

Odešla s nezavázanýma tkaničkama,
oči celý červený,
bylo vidět, že jsme brečeli a já se díval a čekal jsem,
dokud nebyla uvnitř, nutil se k úsměvu a mával na rozloučenou.

Ze zvědavosti je najednou těžké břímě,
příliš těžké, než aby se dalo nést
Ze zvědavosti je najednou těžké břímě,
příliš těžké, než aby se dalo nést,
donutí tě stát se chladným

Udělej mi laskavost a zeptej se, jestli nepotřebuje pomoc,
řekla, udělej mi laskavost a přestaň si o sobě tolik myslet,
jak přeřezat svazující pouta, možná, že i 'jdi do hajzlu', by bylo moc jemný.

Prosinec

15. října 2007 v 0:01 | Martin Novák |  KONCERTY
1. po - Espacio Movistar, Barcelona
3. út - Palladium, Cologne
6. čt - HMH Amsterodam
8. so - Alexandra Palace, London
9. ne - Alexandra Palace, London
11. út - Manchester Central
12. st - Manchester Central
14. pá - AECC Aberdeen
15. so - AECC Aberdeen

Na již vyprodaném Britském turné pojedou s AM speciální hosté The Horrors a The Rascals.

Říjen + Listopad

13. října 2007 v 0:01 | Martin Novák |  KONCERTY
St 24.10 - Luna Park, Buenos Aires
Pá 26.10 - Marina da Gloria, Rio de Janeiro
Ne 28.10 - Arena Skol, Sao Paolo
St 31.10 - Pedreira, Curitaba

Út 27.11 - La Trocardiere, Nantes
St 28.11 - La Phare, France
Pá 30.11 - La Riviera, Madrid

Nová instrumentálka

11. října 2007 v 0:01 | Martin Novák |  Live
Wagon On The Way To The Stripey Tent

Tak touto novou instrumentálkou zahajují AM svoje koncerty.

Přehled ocenění v roce 2006

9. října 2007 v 0:01 | Martin Novák |  Ocenění a nominace
Skupinová ocenění

Nejlepší Britský průlomový počin (Best British Breakthrough Act) - Brit Awards
Nejlepší nová skupina (Best New Band) - NME Awards
Nejlepší Britská skupina (Best British Band) - NME Awards
Nejlepší nový mezinárodní umělec (Best New International Artist) - Oye Awards (Mexico)
Cena diváků (People's Choice) - Q Awards


Ocenění písniček

Nejlepší písnička (Best Track) - I Bet You Look Good On The Dancefloor - NME Awards


Ocenění desek
(Whatever people say I am, that's what I'm not)


Páté nejlepší Britské album (5th greatest British album) - NME
Album roku (Album of the Year) - Mercury Prize
Nejlepší album (Best Album) - Q Awards
Album roku (Album of the Year) - Crossbeat Magazine (Japonsko)
Album roku (Album of the Year) - NME
Album roku (Album of the Year) - Time Magazine
Album roku (Album of the Year) - Hot Press Magazine (Irsko)
Album roku (Album of the Year) - Q Magazine

Přehled ocenění v roce 2005

7. října 2007 v 0:01 | Martin Novák |  Ocenění a nominace
V tomto roce byli sice AM neznámí, ale přece jen si jich někdo všimnul - Muso Awards - charitativní ceny, které se předávají od roku 2002. Jejich zajímavostí je, že nejsou od žádných akademiků a podobně, ale od pravých hudebníků, pravým hudebníkům.
Arctic Monkeys tedy zvítězili v kategorii:

Nejlepší nový počin roku 2002

Kromě AM zvítězili například Strokes, Kaiser Chiefs, Razorlights, Babyshambles a další...


Další singl

5. října 2007 v 0:01 | Martin Novák |  Zajímavosti
Arctic Monkeys ohlásili, že jejich novým singlem, v pořadí již třetím, se stane Teddy Picker. Vyjít by měl 3.prosince.
Dříve se ve spojení s novým singlem mluvilo spíše o Old Yellow Bricks, ale nakonec to dopadlo takto.

A Certain Romace

3. října 2007 v 0:01 | Martin Novák (ultimate-guitar.com) |  Taby
intro

e |---------|
B |---------|
G |---7--9--|
D |-9-------|
A |---------| X 16
E |---------|

e |----------|
B |----------|
G |----------|
D |--9-9-9---|
A |--9-9-9---| X 8 (Scratch strings inbetween)
E |--7-7-7---|
(Scratch strings inbetween)

Part i

e |----------------------14-14-14---------------16-16-16---------------18-18-18-18-18-15-12--| B |----16-16---16-16-16-----------16---16-16-16----------16---16-16-16-----------------------| G |------------------------------------------------------------------------------------------|
D |------------------------------------------------------------------------------------------|
A |------------------------------------------------------------------------------------------|
E |------------------------------------------------------------------------------------------|

e |--7--7-7-7-9-7---9-7---7--7-7-7---------------------------------------------------------|
B |---------------9-----9----------8-8-8-8-------------------------------------------------|
G |----------------------------------------------------------------------------------------|
D |----------------------------------------------------------------------------------------|
A |----------------------------------------------------------------------------------------|
E |----------------------------------------------------------------------------------------|

Repeat

VERSE (Bass Starts at the same Time Here)


e |---11--------|
B |---12--------|
G |---11--------|
D |-------------|
A |-------------| X 16
E |-------------|

e |---7---------|
B |---9---------|
G |---9---------|
D |-------------|
A |-------------| X 16
E |-------------|

"You Know..."

e |-------------------------------------------------------------|
B |--9--9-7------9-7-----9-7-----9-7----------------------------|
G |---------8--6-----8-------8-------8-------6-8----9-5-6-------|
D |--------------------9-------9----------9-------6--------4----|
A |-------------------------------------------------------------|
E |-------------------------------------------------------------|

Repeat them Play the above over the following chords

Ab Gb E X2

Bass Solo - Here Bass Plays 4 times, for the 5th time play;

e |---7-----7-7-7-7-7------------7------|
B |---9---------------9-9--------8------|
G |---9-------------------9------9------|
D |-------------------------------------|
A |-------------------------------------|
E |-------------------------------------|
Then;

Play Part i 1 time with the following chords in the background, then 1 time without and then the third time with:

e |---11--------|
B |---12--------|
G |---11--------|
D |-------------|
A |-------------| X 16
E |-------------|

e |---7---------|
B |---9---------|
G |---9---------|
D |-------------|
A |-------------| X 16
E |-------------|


After this, a solo Background chords B Ab and G

e |----------------------------------------------------|
B |----------------------------------------------------|
G |----------------------------------8-----8--6--4-----|
D |---9-8-9--9/11-9-8-9---8-9-9/11-9---4-----------6--5|
A |----------------------------------------------------| X2
E |----------------------------------------------------|

e |---------------------------------------|
B |--9-9-7-7--------9-9-9-7-7-------------|
G |----------8-8-8-------------8-8-8-8----|
D |---------------------------------------|
A |---------------------------------------| X 7
E |---------------------------------------|

On the Eighth one however

e |---------------------------------------|
B |--9-9-7-7-------------7-7--------------|
G |----------8-8-6-6-8-8------8-8-6-6-4---|
D |---------------------------------------|
A |---------------------------------------|
E |---------------------------------------|

From Ritz To Ruble

1. října 2007 v 0:01 | Martin Novák (ultimate-guitar.com) |  Taby
Intro / Verse (guitar 1)

e|-7----7-/-10----10--7----7-|
B|-7----7-/-10----10--8----8-| Play this a load of times
G|-8----8-/-11----11--9----9-|
D|-9----9-/-12----12--9----9-|
A|-9----9-/-12----12--7----7-|
E|-7----7-/-10----10---------|

(guitar 2)

e|----------------------------------------|
B|----------------------------------------|
G|-16--14-11----11----------7---------9---| x2
D|------------14----9---7-9-------7-9-----|
A|----------------------------------------|
E|----------------------------------------|

Chorus (guitar 1)

e|--------------------------------------------------| B|--------------------------------------------------| G|--------------------------------------------------| D|-------------------7-9-7-9--------9999999999999999| x4 A|-5-7-5-7--7-9-7-9-----------------9999999999999999| E|----------------------------------7777777777777777|

(guitar 2)

e|--------------------------------------------------| B|--------------------------------------------------| G|--------------------------------------------------| D|-------------------7-9-7-9------------------------| x3 A|-5-7-5-7--7-9-7-9-----------------14-12---9-7---7-| E|--------------------------------------------------|

On the 4th time play this (guitar 2)

e|-------------------------------------|
B|-------------------------------------|
G|-------------------------------------|
D|------------------7-9-7-9------------|
A|-5-7-5-7--7-9-7-9------------------5~|
E|-------------------------------------|

Verse (guitar 1)

e|-7----7-/-10----10--7----7-|
B|-7----7-/-10----10--8----8-| And again repeat loads
G|-8----8-/-11----11--9----9-| (But it has a slightly different
D|-9----9-/-12----12--9----9-| strumming pattern so u'll have 2
A|-9----9-/-12----12--7----7-| Listen closely)
E|-7----7-/-10----10---------|

Chorus (guitar 1)

e|------------------------------------------------------------------| B|------------------------------------------------------------------| G|------------------------------------------------------------------| D|-------------------7-9-7-9--------9-9-9-9-9-9-9-9-9-9-9-9-9-9-9-9-| A|-5-7-5-7--7-9-7-9-----------------9-9-9-9-9-9-9-9-9-9-9-9-9-9-9-9-| E|----------------------------------7-7-7-7-7-7-7-7-7-7-7-7-7-7-7-7-|

(guitar 2)

e|--------------------------------------------------| B|--------------------------------------------------| G|--------------------------------------------------| D|-------------------7-9-7-9------------------------| x3 A|-5-7-5-7--7-9-7-9-----------------14-12---9-7---7-| E|--------------------------------------------------|

On the 4th time play this (guitar 2)

e|------------------------------------|
B|------------------------------------|
G|------------------------------------|
D|------------------7-9-7-9-----------|
A|-5-7-5-7-7-9-7-9------------------5~|
E|------------------------------------|

Bridge (clean guitar) (guitar 1)

e|-7-7-7-7-7-7-7-7-7-7-7-7-7-7-7-7---10-10-10-10-10-10-10-10---7-7-7-7-7-7-7-7-| B|-7-7-7-7-7-7-7-7-7-7-7-7-7-7-7-7---10-10-10-10-10-10-10-10---8-8-8-8-8-8-8-8-| G|-8-8-8-8-8-8-8-8-8-8-8-8-8-8-8-8---11-11-11-11-11-11-11-11---9-9-9-9-9-9-9-9-| D|-9-9-9-9-9-9-9-9-9-9-9-9-9-9-9-9---12-12-12-12-12-12-12-12---9-9-9-9-9-9-9-9-| x6 A|-9-9-9-9-9-9-9-9-9-9-9-9-9-9-9-9---12-12-12-12-12-12-12-12---7-7-7-7-7-7-7-7-| E|-7-7-7-7-7-7-7-7-7-7-7-7-7-7-7-7---10-10-10-10-10-10-10-10-------------------|

Solo

e|-------------------------------------------------------------------------------------| B|-------------------------------------------------------------------------------------| G|-------------------------------------------------------------------------------------| D|-------------------------------------------------------------------------------------| A|-0-222222222----999-777-55555555---12121212-99-7-9----12121212-9-7-5-555555-77777777-| E|-------------------------------------------------------------------------------------|

e|--------------------------------------------------------| B|--------------------------------------------------------| G|--------------------------------------------------------| D|--------------------------------------------------------| A|-22222222---999-777-55555555---1212121212-1414-99999999-| E|--------------------------------------------------------|

e|-------------------------------------------------| B|-------------------------------------------------| G|-------------------------------------------------| D|-------------------------------------------------| A|-121212-141414-1717171717171717-1919191919191919-| E|-------------------------------------------------|

e|------------------------------------------------------| B|------------------------------------------------------| G|16-16-16-16-16-16-14-14-11-11-11-11-11-11-------11-11-| D|------------------------------------------14-14-------| A|------------------------------------------------------| E|------------------------------------------------------|

e|-------------------------------------------------------------------------| B|-------------------------------------------------------------------------| G|---------------------------------7-7-7-7-7-7-7-7---------9-9-9-9-9-9-9-9-| D|-9-9-9-9-9-9-9-9-9-9-9-9-7-7-9-9-----------------7-7-9-9-----------------| A|-------------------------------------------------------------------------| E|-------------------------------------------------------------------------|

e|------------------------------------------------------| B|------------------------------------------------------| G|16-16-16-16-16-16-14-14-11-11-11-11-11-11-------11-11-| D|------------------------------------------14-14-------| A|------------------------------------------------------| E|------------------------------------------------------|

e|-------------------------------------------------------------------------| B|-------------------------------------------------------------------------| G|---------------------------------7-7-7-7-7-7-7-7---------9-9-9-9-9-9-9-9-| D|-9-9-9-9-9-9-9-9-9-9-9-9-7-7-9-9-----------------7-7-9-9-----------------| A|-------------------------------------------------------------------------| E|-------------------------------------------------------------------------|