Září 2007

When The Sun Goes Down

29. září 2007 v 0:01 | Martin Novák (ultimate-guitar.com) |  Taby
Intro - guitar 1

-x-x-x-x-x-x-x-x-x-x-x-x-x-/--x--x-x-x-x-x-x-x-x-x-x-x-x-x-x-x-x-x-x-/--x--x-x-x-x--x-x--x-x--x-x-x-x-x--x-| -7-x-8-x-9-x-8-x-9-x-8-x-5-/-12--9-8-5-8-x-7-x-8-x-9-x-8-x-9-x-8-x-5-/-12--9-8-5-8-12-8-12-8-12-8-5-7-9-11-| -8-x-8-x-9-x-8-x-9-x-8-x-6-/-12-10-8-6-8-x-8-x-8-x-9-x-8-x-9-x-8-x-6-/-12-10-8-6-8-12-9-12-9-12-9-6-8-9-11-|

ring

-9-x-6-x-7-x-6-x-7-x-6-x-4-/-10--8-6-4-6-x-9-x-6-x-7-x-6-x-7-x-6-x-4-/-10--8-6-4-6-10-7-10-7-10-7-4-6-7--9-| -7-x-x-x-x-x-x-x-x-x-x-x-x-/--x--x-x-x-x-x-7-x-x-x-x-x-x-x-x-x-x-x-x-/--x--x-x-x-x--x-x--x-x--x-x-x-x-x--x-|

Intro 2 - both guitars

-x-x-xxxxx-x-x-x-x-2-x-xxxxx-x-x-x-x-2-x-xxxxx-x-x-x-x-22-xx-22-xx-22-xx-22-xx-22-xx-| -3-x-xxxxx-x-x-3-2-2-x-xxxxx-x-x-3-2-2-x-xxxxx-x-x-3-2-22-xx-22-xx-22-xx-22-xx-22-xx-| -3-x-xxxxx-x-x-3-2-4-x-xxxxx-x-x-3-2-4-x-xxxxx-x-x-3-2-44-xx-44-xx-44-xx-44-xx-44-xx-| -5-x-xxxxx-x-x-5-4-4-x-xxxxx-x-x-5-4-4-x-xxxxx-x-x-5-4-44-xx-44-xx-44-xx-44-xx-44-xx-| -5-x-xxxxx-x-x-5-4-2-x-xxxxx-x-x-5-4-2-x-xxxxx-x-x-5-4-22-xx-22-xx-22-xx-22-xx-22-xx-| -3-x-xxxxx-x-x-3-2-x-x-xxxxx-x-x-3-2-x-x-xxxxx-x-x-3-2-x--xx-xx-xx-xx-xx-xx-xx-xx-xx-|

after intro 2 guitar 2 plays this

----------------------------------------------------------| ----------------------------------------------------------| ----------------------------------------------------------|
-------------0-2-4-x4----then play this-------------4-2-0-| ---------2-2-------------------------------------2-2------| -3-3-2-2---------------------------------3-3-2-2----------|

when guitar 1 plays riff once guitar 2 comes in with this riff

-------------2-2-2-2-2-|
-3-3--2-2-2--2-2-2-2-2-|
-3-3--2-2-2--4-4-4-4-4-| x4
-5-5--4-4-4--4-4-4-4-4-|
-5-5--4-4-4--2-2-2-2-2-|
-3-3--2-2-2------------|

verse 1 - first part is a bass solo and then around 1:27 guitar 2 plays this

-xx-xx-xx-xx-xx-22-xx-22-| -xx-33-xx-22-xx-22-xx-22-| -xx-33-xx-22-xx-44-xx-44-| -xx-55-xx-44-xx-44-xx-44-|x4 -xx-55-xx-44-xx-22-xx-22-| -xx-33-xx-22-xx-xx-xx-xx-|

chorus - both guitars

-xx-x--x--x--x--x--xxx-xx-|
-88-x-10-10-10-10--xxx-xx-|
-99-x-11-11-11-11--777-77-|
-99-x-11-11-11-11--999-99-|x4
-77-x--9--9--9--9--999-99-|
-xx-x--x--x--x--x--777-77-|

then go back to the 'pre-verse' riffs for both guitars guitar 2

----------------------------------------------------------| ----------------------------------------------------------| ----------------------------------------------------------|
-------------0-2-4-x3----then play this-------------4-2-0-| ---------2-2-------------------------------------2-2------| -3-3-2-2---------------------------------3-3-2-2----------|

guitar 1

-------------2-2-2-2-2-|
-3-3--2-2-2--2-2-2-2-2-|
-3-3--2-2-2--4-4-4-4-4-| x4
-5-5--4-4-4--4-4-4-4-4-|
-5-5--4-4-4--2-2-2-2-2-|
-3-3--2-2-2------------|

then verse with this played by guitar 1

-xx-xx-xx-xx-xx-22-xx-22-|
-xx-33-xx-22-xx-22-xx-22-|
-xx-33-xx-22-xx-44-xx-44-|
-xx-55-xx-44-xx-44-xx-44-|x8 on 4th guitar 2 plays
-xx-55-xx-44-xx-22-xx-22-|
-xx-33-xx-22-xx-xx-xx-xx-|

on 4th guitar 2 plays

-----------------------------------------------------x-x-x-x-| -----------------------------------------------------x-x-x-x-| -----------------------------------------------------7-7-7-7-|
-------------0-2-4-x----then both guitars play this--9-9-9-9-| ---------2-2-----------------------------------------9-9-9-9-| -3-3-2-2---------------------------------------------7-7-7-7-|

chorus - both guitars played twice

-xx-x--x--x--x--x--xxx-xx-|
-88-x-10-10-10-10--xxx-xx-|
-99-x-11-11-11-11--777-77-|
-99-x-11-11-11-11--999-99-|x4
-77-x--9--9--9--9--999-99-|
-xx-x--x--x--x--x--777-77-|

'round here'

-x-----------x-------------------|
-x-----------x-------------------|
-3-----------2-------------------|
-5-let-ring--4-guitar-2-let-ring-|
-5-----------4-------------------|
-3-----------2-------------------|

outro - guitar 1

-x-x-x-x-x-x-x-x-x-x-x-x-x-x-x-x-x-x--x--x-----------x--x--x--x--x---x--x----------| -7-x-8-x-9-x-8-x-9-x-8-x-5-5-7-7-9-9-11-11----------11-11-11-11-11--11--x----------| -8-x-8-x-9-x-8-x-9-x-8-x-6-6-8-8-9-9-11-11----------11-11-11-11-11--11--8----------| -9-x-8-x-9-x-8-x-9-x-8-x-6-6-8-8-9-9-11-11-let-ring-11-11-11-11-11--11--9-let-ring-| -9-x-6-x-7-x-6-x-7-x-6-x-4-4-6-6-7-7--9--9-----------9--9--9--9--9---9--9----------| -7-x-x-x-x-x-x-x-x-x-x-x-x-x-x-x-x-x--x--x-----------x--x--x--x--x---x--7----------|

Perhaps Vampire Is A Bit Strong But....

27. září 2007 v 0:01 | Martin Novák (ultimate-guitar.com) |  Taby
Intro

e----------------------------------------|
B----------------------------------------|
G-4-2----------2------4-2----------2-----|
D-----4--4-2-4---4-2------4--4-2-4---4-2-|
A----------------------------------------|
E----------------------------------------|

e----------------------|
B----------------------|
G----------------------|
D--4-2----------2------|
A------4--4-2-4---4-2--|
E----------------------|

e|----------------------|
B|----------------------|
G|-----------6-6--5-----|
D|-4-4--7-7--6-6--5-----|
A|-4-4--7-7--4-4--3-----|
E|-2-2--5-5-------------|

Verse

e|----------------------|
B|----------------------|
G|-----------6-6--------|
D|-4-4--7-7--6-6--5-5---|
A|-4-4--7-7--4-4--5-5---|
E|-2-2--5-5-------7-7---|

Post verse(try and play it quickly or just play the root)

e|----------------------|
B|----------------------|
G|----------------------|
D|--9-9-9-9--11-9--7----|
A|--9-9-9-9--11-9--7----|
E|--7-7-7-7--9--7--5----|

Then it's the verse again With some feedback throughout Post verse

e|----------------------|
B|----------------------|
G|----------------------|
D|--9-9-9-9--11-9--7----|
A|--9-9-9-9--11-9--7----|
E|--7-7-7-7--9--7--5----|

This comes in half way through

e|----|
B|----|
G|----|
D|-9--|
A|-7--|
E|----|

Bridge part (with a phaser)

e|----------|
B|----------|
G|-12--11---|
D|-12--11---|
A|-10--9----|
E|----------|

Those 2 chords continue for a bit 1 guitar

e|------------------|
B|------------------|
G|------------------|
D|------------------|
A|---0--2--3--2--0--|
E|-2----------------|

e|--------------------------------------------|
B|--------------------------------------------|
G|--------------------------------------------|
D|------------------------------2-------------|
A|---0-2-3-----0-2-3-----0-2-3----4-2-3-2-0---| x2
E|-2---------2---------2----------------------|

2nd guitar with the solo

e|----------------------------------------|
B|----------------------------------------|
G|--------6--6-6-6-9-6-6-6-6-9-6-9-6-9-9--|
D|----7-9---------------------------------|
A|--9-------------------------------------|
E|----------------------------------------|

e|-----------------------------------|
B|-----------------------------------|
G|--------6------------------6-9-----|
D|----7-9----------------7-9-----9-7-|
A|--9-------7--7-7-7-7-9-------------|
E|-----------------------------------|

e|--------------------------------------------|
B|-------------------------------------7------|
G|-----6-9------6-9-------6-9------6-9---9----|
D|-7-9-----9-7\------9-7\-----9-7\---------7\-|
A|--------------------------------------------|
E|--------------------------------------------|

e|-----------------------------------------|
B|----------------------------------7------|
G|--6-9------6-9-------6-9------6-9---9----|
D|------9-7\------9-7\-----9-7\------------|
A|--------------------------------------9\-|
E|-----------------------------------------|

Outro

e|-1/2-2-2-2--4/5-5-5-5--8/9-9-9-9---------|
B|-1/2-2-2-2--4/5-5-5-5--8/9-9-9-9---------|
G|-1/2-2-2-2--4/5-5-5-5--8/9-9-9-9---------|
D|-----------------------------------------|
A|-----------------------------------------| x5
E|-----------------------------------------|

Mardy Bum

25. září 2007 v 0:01 | Martin Novák (ultimate-guitar.com) |  Taby
INTRO

e-------------------------------------|
B-12-12-12--10------------------------|
G--------------11-9-------------------|
D-------------------12-9----9---------|
A------------------------12---12-9----|
E----------------------------------12-|

e----------------------------------------------------------------------------| B-7--7-5-7-5--------5----7-7-7-5-7-5--------5-----------------------5--------| G------------7--7-7------------------7--7-7---6-7-7-6-4-2-7-7-7-7-7----------| D----------------------------------------------------------------------------| A----------------------------------------------------------------------------| E----------------------------------------------------------------------------|

e----------------------------------------------------------------------------| B-7--7-5-7-5--------5----7-7-7-5-7-5--------5---------------------------5----| G------------7--7-7------------------7--7-7---6-7-7-6-4-6-7---7-7-7-7-7---7--| D----------------------------------------------------------------------------| A----------------------------------------------------------------------------| E----------------------------------------------------------------------------|

SOLO

e----------------------------------------------------| B----------------------------------------------------| G-/9-7-6-7--6-9-7-6-7-6-----------------2------------| D-----------------------9-11-9-7-4--2h4---4-2--------| A----------------------------------------------------| E----------------------------------------------------|

e----------------------------------------------------| B---------------------------7------------7-----------| G------7-7-7-7-7-9-6--6-7-9---9-7-4---7----9-7-9-7---| D-0--------------------------------------------------| A----------------------------------------------------| E----------------------------------------------------|

Red Light Indicates Doors Are Secure

23. září 2007 v 0:01 | Martin Novák (ultimate-guitar.com) |  Taby
Intro

1st guitar

e------------------|
B------------------|
G------------------|
D------------------|
A----------5--4----|
E-2-2-2--5------5-4|

2nd guitar (you have to listen to get the timing)

e----------|
B----------|
G-----11---|
D-----11---|
A-----9----|
E----------|

Verse

e------------------|
B------------------|
G------------------|
D------------------|
A----------5--4----|
E-2-2-2--5------5-4|

This comes later

e------------------|
B------4-----------|
G--4-2-4--9-10-11--|
D--4-2-4--9-10-11--|
A--2-0-2--7-8--9---|
E------------------|

Verse 2(it's the same as the intro)

1st guitar

e------------------|
B------------------|
G------------------|
D------------------|
A----------5--4----|
E-2-2-2--5------5-4|

2nd guitar

e----------|
B----------|
G-----11---|
D-----11---|
A-----9----|
E----------|

This comes later

e------------|
B------------|
G--4---4-----|
D--4-7-4--7--|
A--2-7-2--7--|
E----5----5--|

e--------------|
B--------------|
G--4---4--9-11-|
D--4-7-4--9-11-|
A--2-7-2--7-8--|
E----5---------|

Solo 1st guitar

e------------------|
B------------------|
G------------------|
D------------------|
A----------5--4----|
E-2-2-2--5------5-4|

2nd guitar

e--------------------------------|
B--------------------------------|
G--------------------------------|
D--------------------------------|
A--9-7--4------------------------|
E---------7-5-7-5--5-5-7-5-7-5---|

e----------------------------------------------------| B----------------------------------------------------| G----------------------------------------------------| D---------------------------------------7------7h9---| A------------------------4-7-4-7--9-7-9---9--9-------| E--7-5-7-5-5-2--0-2--5-7-----------------------------|

e-------------------------------------------------|
B-------------------------------------------------| G-------------------------------------------------| D--9-9-9h7-------7---9/7--9-9-9h7-------7----9/7--| A----------9-7-9---9--------------9-7-9---9-------| E-------------------------------------------------|

e----------------------------------------------------| B----------------------------------------------------| G----------------------------------------------------| D--9-9-9h7-------7----9/7--9/11-9-7-9--9/11-9-7-9-7--| A----------9-7-9---9---------------------------------| E----------------------------------------------------|

e-----------------------------------------|
B-----------------------------------------|
G-----------------------------------------|
D--9-9-9-9--7-7-7------------------7-9-10b|
A------------------9-9-9--7-7-7--9--------|
E-----------------------------------------|

e--------------|
B--------------|
G--4---4--9-11-|
D--4-7-4--9-11-|
A--2-7-2--7-8--|
E----5---------|

3rd verse/ending



1st guitar

e------------------|
B------------------|
G----------7-6-----|
D--4-4-4-7-----7-6-|
A------------------|
E------------------|

2nd guitar

e------------------|
B------------------|
G------------------|
D------------------|
A----------5--4----|
E-2-2-2--5------5-4|

Riot Van

21. září 2007 v 0:01 | Martin Novák (ultimate-guitar.com) |  Taby
verse one
F#m C#m Bm
Up rolled the riot van and sparked excitement in the boys |--------------2----4-------2----------------------------------------| |--------------2----5-------3----------------------------------------| |--------------2----6-------4----------------------------------------| |--------------4----6-------4----------------------------------------| |-------------------4-------2----------------------------------------| |--------------------------------------------------------------------|
F#m C#m Bm
But the policemen look annoyed |--------------2----4-------2----------------------------------------| |--------------2----5-------3----------------------------------------| |--------------2----6-------4----------------------------------------| |--------------4----6-------4----------------------------------------| |-------------------4-------2----------------------------------------| |--------------------------------------------------------------------|
F#m C#m Bm
Perhaps these are ones they should avoid |--------------2----4-------2----------------------------------------| |--------------2----5-------3----------------------------------------| |--------------2----6-------4----------------------------------------| |--------------4----6-------4----------------------------------------| |-------------------4-------2----------------------------------------| |--------------------------------------------------------------------|
F#m C#m Bm
|--------------2----4-------2----------------------------------------| |--------------2----5-------3----------------------------------------| |--------------2----6-------4----------------------------------------| |--------------4----6-------4----------------------------------------| |-------------------4-------2----------------------------------------| |--------------------------------------------------------------------|

chorus

A .....................................C#m ...............................Bm
They got a chase last night from men with trunchens dressed in hats |---------------------------4----------------------------------------| |---------------------------5--5--5--5---5--5--0----3-3-3-3--3-3-0---| |----------6----------------6--6--6--6---6--6--0----4-4-4-4--4-4-0---| |-7--7--7--7--7--7--0-------6--6--6--6---6--6--0----4-4-4-4--4-4-0---| |-7--7--7--7--7--7--0-------4------------4----------2--------2-------| |-5--5--5--5--5--5--0------------------------------------------------|

...E ...............................A ....................................C#m
Didnt do that much wrong still ran away though |--------0--(0)----------------------------------4-------------------| |-----0--0---0--0--------------------------------5--5--5--5---5--5--0| |-1-1-1--1-1-1--0------------6-------------------6--6--6--6---6--6--0| |-2-2-2----2----0------7--7--7--7-----7--7--0----6--6--6--6---6--6--0| |-2-2-2----2----0------7--7--7--7-----7--7--0----4------------4------| |----------------------5--5--5--5-----5--5--0------------------------|

...Bm ..................E
laugh .. laugh
|--------------------------0--(0)------------------------------------| |-3-3-3-3--3-3-0--------0--0---0--0----------------------------------| |-4-4-4-4--4-4-0----1-1-1--1-1-1--0----------------------------------| |-4-4-4-4--4-4-0----2-2-2----2----0----------------------------------| |-2-----------------2-2-2----2----0----------------------------------| |--------------------------------------------------------------------|

verse two
F#m C#m Bm
& please just stop tal----king 'cause they won't find us if you do |--------------2----4-------2----------------------------------------| |--------------2----5-------3----------------------------------------| |--------------2----6-------4----------------------------------------| |--------------4----6-------4----------------------------------------| |-------------------4-------2----------------------------------------| |--------------------------------------------------------------------|
F#m C#m Bm
All those silly boys in blue
|--------------2----4-------2----------------------------------------| |--------------2----5-------3----------------------------------------| |--------------2----6-------4----------------------------------------| |--------------4----6-------4----------------------------------------| |-------------------4-------2----------------------------------------| |--------------------------------------------------------------------|
F#m C#m Bm
Well they won't catch me and you |--------------2----4-------2----------------------------------------| |--------------2----5-------3----------------------------------------| |--------------2----6-------4----------------------------------------| |--------------4----6-------4----------------------------------------| |-------------------4-------2----------------------------------------| |--------------------------------------------------------------------|
F#m C#m Bm
|--------------2----4-------2----------------------------------------| |--------------2----5-------3----------------------------------------| |--------------2----6-------4----------------------------------------| |--------------4----6-------4----------------------------------------| |-------------------4-------2----------------------------------------| |--------------------------------------------------------------------|

chorus

..A ....................................C#m .................................Bm
Have you been drinking son? you dont look old enough to me |---------------------------4----------------------------------------| |---------------------------5--5--5--5---5--5--0----3-3-3-3--3-3-0---| |----------6----------------6--6--6--6---6--6--0----4-4-4-4--4-4-0---| |-7--7--7--7--7--7--0-------6--6--6--6---6--6--0----4-4-4-4--4-4-0---| |-7--7--7--7--7--7--0-------4------------4----------2--------2-------| |-5--5--5--5--5--5--0------------------------------------------------|

...E .............................A ......................................C#m
Im sorry officer is there a certain age your |--------0--(0)----------------------------------4-------------------| |-----0--0---0--0--------------------------------5--5--5--5---5--5--0| |-1-1-1--1-1-1--0------------6-------------------6--6--6--6---6--6--0| |-2-2-2----2----0------7--7--7--7-----7--7--0----6--6--6--6---6--6--0| |-2-2-2----2----0------7--7--7--7-----7--7--0----4------------4------| |----------------------5--5--5--5-----5--5--0------------------------|

...Bm ...................E
be? cause no body told me and up ... |--------------------------0--(0)------------------------------------| |-3-3-3-3--3-3-0--------0--0---0--0----------------------------------| |-4-4-4-4--4-4-0----1-1-1--1-1-1--0----------------------------------| |-4-4-4-4--4-4-0----2-2-2----2----0----------------------------------| |-2-----------------2-2-2----2----0----------------------------------| |--------------------------------------------------------------------|

verse three
F#m C#m Bm
rolls the riot van and these lads just wind the coppers up |--------------2----4-------2----------------------------------------| |--------------2----5-------3----------------------------------------| |--------------2----6-------4----------------------------------------| |--------------4----6-------4----------------------------------------| |-------------------4-------2----------------------------------------| |--------------------------------------------------------------------|
F#m C#m Bm
They ask why they don't catch proper crooks |--------------2----4-------2----------------------------------------| |--------------2----5-------3----------------------------------------| |--------------2----6-------4----------------------------------------| |--------------4----6-------4----------------------------------------| |-------------------4-------2----------------------------------------| |--------------------------------------------------------------------|
F#m C#m Bm
Get thier address and thier names |--------------2----4-------2----------------------------------------| |--------------2----5-------3----------------------------------------| |--------------2----6-------4----------------------------------------| |--------------4----6-------4----------------------------------------| |-------------------4-------2----------------------------------------| |--------------------------------------------------------------------|
F#m C#m Bm
took But he couldn't care ...
|--------------2----4-------2----------------------------------------| |--------------2----5-------3----------------------------------------| |--------------2----6-------4----------------------------------------| |--------------4----6-------4----------------------------------------| |-------------------4-------2----------------------------------------| |--------------------------------------------------------------------|

solo

N.C ........................................N.C
less
|------------------------------|-------------------------------------| |------------------------------|-------------------------------------| |------------------------------|-------------------------4/9--\2-----| |---------------9\4---4----2---|----------------4/11-----------------| |-0-----9\4--------------------|-0-----9\4---------------------------| |------------------------------|-------------------------------------|

verse four and outro
F#m C#m Bm
Thrown in the riot van and all the coppers kicked him in |--------------2----4-------2----------------------------------------| |--------------2----5-------3----------------------------------------| |--------------2----6-------4----------------------------------------| |--------------4----6-------4----------------------------------------| |-------------------4-------2----------------------------------------| |--------------------------------------------------------------------|
F#m C#m Bm
And there was no way he could win |--------------2----4-------2----------------------------------------| |--------------2----5-------3----------------------------------------| |--------------2----6-------4----------------------------------------| |--------------4----6-------4----------------------------------------| |-------------------4-------2----------------------------------------| |--------------------------------------------------------------------|
F#m C#m Bm
Just had to take it on the chin
|--------------2----4-------2----------------------------------------| |--------------2----5-------3----------------------------------------| |--------------2----6-------4----------------------------------------| |--------------4----6-------4----------------------------------------| |-------------------4-------2----------------------------------------| |--------------------------------------------------------------------|
F#m C#m Bm
|--------------2----4-------2----------------------------------------| |--------------2----5-------3----------------------------------------| |--------------2----6-------4----------------------------------------| |--------------4----6-------4----------------------------------------| |-------------------4-------2----------------------------------------| |--------------------------------------------------------------------|

Still Take You Home

19. září 2007 v 0:01 | Martin Novák (ultimate-guitar.com) |  Taby
e------------|
B------------|
G------------|
D--8-8-12-11-|
A--8-8-12-11-|
E--6-6-10-9--|

e-----------------------------------------------|
B-----------------------------------------------|
G-----------------------------------------------|
D--8-8-8-6---------6--------------------6-------| A----------8-8-6-8----6-8-8--6-8-8--6-8---6-8-6-| E-----------------------------------------------|

e----------------------------------------|
B----------------------------------------|
G----------------------------------------|
D--------------------6-8-6-8--6-8-8-8/6--|
A----6-8---6-8----6----------------------|
E--9-----9------9------------------------|

Verse

e----------------------------------|
B----------------------------------|
G-------------------8-8-8-8--11-10-|
D--8-8-8-8-8-8-8----8-8-8-8--11-10-|
A--8-8-8-8-8-8-8----6-6-6-6---9--8-|
E--6-6-6-6-6-6-6-------------------|

Verse:

Riff 2 x4


Chorus:


1 guitar


e--------------------------------|
B--------------------------------|
G-8-----6----3-3-3-3-3-3-3-3-3-3-|
D-8-----6----3-3-3-3-3-3-3-3-3-3-|
A-6-----4----1-1-1-1-1-1-1-1-1-1-|
E--------------------------------|

Another guitar

e-----------------------------------------|
B-----------------------------------------|
G-----------------------------------------|
D--13-11-13---11-8-8-11---8-8-8-8-8-8-8-8-|
A-------------------------8-8-8-8-8-8-8-8-|
E-------------------------6-6-6-6-6-6-6-6-|

Bridge

e-------------------------------|
B-------------------------------|
G-----3-3-1---------------------|
D-----------3-2--1-1-4-4--444-3-|
A-1-1---------------------------|
E-------------------------------|

e-------------------------------------------|
B-------------------------------------------|
G----------6----------8-8-8-6---8-8-8-6-----|
D--8-8-6-8---8--6-8-8---------8---------8-8-|
A-------------------------------------------|
E-------------------------------------------|

e--------------------------------------------------| B--------------------------------------------------| G------------------------6--8/10-10\6--------------| D-----6-8------------6-8---------------8-8-8-6-8---| A-6-8-------6-8--6-8-----------------------------6-| E---------9----------------------------------------|

You Probably Couldnt See For The Lights But You Were Looking Straight At Me

17. září 2007 v 0:01 | Martin Novák (ultimate-guitar.com) |  Taby
e---------------------------------------------------| B---------------------------------------------------| G-------------------------12-------------12---------| x3 D-9-9-9-9-9-9-9---12-12-x-12-11--12-12-x-12-11------| A-9-9-9-9-9-9-9---12-12-x-10-9--12-12-x-10--9-------| E-7-7-7-7-7-7-7---10-10-x----9--10-10-x-----9-------|

e---------------------------------------------------| B---------------------------------------------------| G-------------------11-11-11-11-11-11-11-11---------| D--x-9-9--x-x-9-9---11-11-11-11-11-11-11-11---------| A--x-9-9--x-x-9-9---9--9--9--9--9--9--9--9----------| E--x-7-7--x-x-7-7-----------------------------------|

Verse

e----------|
B----------|
G----------|
D--9-7-----|
A------9---| repeats for a bit
E--------7-|

e--------------------------------|
B--------------------------------|
G--------------------------------|
D--9-7-------------------5-------|
A------9-7---5--7-7--5-7---5-4---|
E--------------------------------|

Chorus

e------------------|
B------------------|
G---------9--11----|
D--9--12--9--11-12-|
A--9--12--7--9--12-|
E--7--10--------10-|

This comes after a bit

e----------------------|
B----------------------|
G----------------------|
D--9-9--7-7------------|
A-----------9-9--7-5---|
E----------------------|

Post chorus (a bit different then the intro)

e-----------------=-------------------------------------| B-------------------------------------------------------| G-------------------------------------------------------| D-9-9-9-9-9/12\--9-9---7-7-7--7/9-9-9---7-7-7--7/9-9-9-7| A-9-9-9-9-9/12\--9-9------------------------------------| x2 E-7-7-7-7-7/10\--7-7------------------------------------|

Then the verse comes in again



Chorus

e-------------------------------------------|
B-----7----------7--------------------------|
G-9-9---9-7--9-9---9-7-------------9-11-----|
D-----------------------9-7-9-7-12-9-11-11--|
A-------------------------------12-7-9--11--| x3
E-------------------------------10------9---|
-
e-------------------------------------------------------------| B-----7----------7--------------------------------------------| G-9-9---9-7--9-9---9-7---11-11-11-11-11-11-11--11-9-7---------| D-----------------------------------------------------9-------| A-------------------------------------------------------------| E-------------------------------------------------------------|

e------------------|
B------------------|
G---------9--11----|
D--9--12--9--11-12-|
A--9--12--7--9--12-|
E--7--10--------10-|

Verse

e-------------|
B-------------|
G--12-11---9--|
D--12-11-9-9--|
A--10-9--9-7--|
E--------7----| x3

e---------------------|
B---------------------|
G---------------------|
D--5--12---9-9-9-9-9-9|
A--5--12---9-9-9-9-9-9|
E--3--10---7-7-7-7-7-7|

Dancing Shoes

15. září 2007 v 0:01 | Martin Novák (ultimate-guitar.com) |  Taby
Intro

e---------------------------------------------------| B---------------------------------------------------| G---------------------------------------------------| D-----4--1--------4--1------------------2-2-2--4-2--| x4 A----------2-----------2---4-4-4--6-4---------------|
E-4-4---------4-4-----------------------------------|

Chorus

e------------------------------------------------------| B------------------------------------------------------| G-------6--4------------------------6--4---------------| D-6--4--4--4--6---------------6--4--4--4--6------------| A-6--4--4--2--4---------------6--4--4--2--4------------| E-4--2--------4-4-4--2-4------4--2--------4-4-4--4-4---|

e------------------------------------------------------| B------------------------------------------------------| G-------6--4------------------------6--4---------------| D-6--4--4--4--6---------------6--4--4--4--6------------| A-6--4--4--2--4---------------6--4--4--2--4------------| E-4--2--------4-4-4--2-4------4--2--------4------------|

Verse 'The lights are flashing'

e---------------------------------------------------------| B---------------------------------------------------------| G---------------------------------------------------------| D----------------------------------------2-2-2--4-2-------| x2 A---------------------------4-4-4--6-4--------------------| E-4-4-4--2-4---4-4-4--2-4---------------------------------|

e---------------------------------------------------------| B---------------------------------------------------------| G---------------------------------------------------------| D----------------------------------------2-2-2--4-2-------| A------------2--------------4-4-4--6-4--------------------| E-4-4-4--2-4---4-4-4--2-4---------------------------------|

e---------------------------------------------------------| B---------------------------------------------------------| G---------------------------------------------------------| D----------------------------------------2-2-2--4-2-------| A---------------------------4-4-4--6-4--------------------| E-4-4-4--2-4---4-4-4--2-4---------------------------------|

Chorus

e------------------------------------------------------| B------------------------------------------------------| G-------6--4------------------------6--4---------------| D-6--4--4--4--6---------------6--4--4--4--6------------| A-6--4--4--2--4---------------6--4--4--2--4------------| E-4--2--------4-4-4--2-4------4--2--------4-4-4--4-4---|

e------------------------------------------------------| B------------------------------------------------------| G-------6--4------------------------6--4---------------| D-6--4--4--4--6---------------6--4--4--4--6------------| A-6--4--4--2--4---------------6--4--4--2--4------------| E-4--2--------4-4-4--2-4------4--2--------4------------|

Backing guitar for solo

e-------------------------------------------|
B-------------------------------------------|
G-----------------6666666699999999----------| D-66666666666666666666666699999999----------| x4 A-66666666666666664444444477777777----------| E-4444444444444444--------------------------|

Then back to intro
e--|
B-----------------------------------------------------------------------------| G-----------------------------------------------------------------------------| x2 D-----4--1--------4--1------------------2-2-2--4-2----------------------------| A----------2-----------2---4-4-4--6-4-----------------------------------------| E-4-4---------4-4-------------------------------------------------------------|

'Oh and the shit, shock horror' (short pause between each chord)

e---------------------------------------------------| B---------------------------------------------------| G------------------6-6-6-6-9-9-9-9------------------| D--6-6-6-6-6-6-6-6-6-6-6-6-9-9-9-9------------------| x2 A--6-6-6-6-6-6-6-6-4-4-4-4-7-7-7-7------------------| E--4-4-4-4-4-4-4-4----------------------------------|

Outro:

e-----------------------------------------------------------| B-----------------------------------------------------------| G-----------------------------------------------------------| D--6-6-6--4-6-----6-6-6--4-6-----6-6-6--4-6-----6-6-6--4-6--| A--6-6-6--4-6-----6-6-6--4-6-----6-6-6--4-6-----6-6-6--4-6--| E--4-4-4--2-4-----4-4-4--2-4-----4-4-4--2-4-----4-4-4--2-4--|

Fake Tales Of San Fransisco

13. září 2007 v 0:01 | Martin Novák (ultimate-guitar.com) |  Taby
Main Riff (Intro and Verses):

e |---------------------------------------------------------------------|
B |---------------------------------------------------------------------|
G |---------------------------------------------------------------------|
D |----------------------------------------------------------7----------|
A |-----5-----5-7-5-----5-----5-7-5-----5-----5-7-5----5-7-9---9-7-5----|
E |--7-----7---------7-----7---------7-----7---------7---------------7--|

Second Guitar (During Verses:

e |--7-7---5---7-7---5---7-7---5--|
B |--7-7---5---7-7---5---7-7---5--|
G |-------------------------------|
D |-------------------------------|
A |-------------------------------|
E |-------------------------------|

Bridge (x4):

Guitar 1:


e|----------------------------------------------------------------| B|----------------------------------------------------------------| G|--------------------------------9999999999999999----------------| D|9999999999999999555555555555555599999999999999999999999999999999| A|9999999999999999555555555555555577777777777777779999999999999999| E|77777777777777773333333333333333----------------7777777777777777|

Guitar 2:

e|------------------------------------------------------------------| B|------------------------------------------------------------------| G|------------------------------------------------------------------| D|9999999999999999555555555555555522222222222222229999999999--------| A|9999999999999999555555555555555522222222222222229999999999----7-9-| E|7777777777777777333333333333333300000000000000007777777777-10-----|

Outro:

e |--7-7---5----------------------|
B |--7-7---5------Play 8 Times----|
G |-------------------------------|
D |-------------------------------|

(Second guitar joins after first 2)

A |-------------------------------|
E |-------------------------------|

End on:

e |--7--|
B |--7--|
G |-----|
D |-----|
A |-----|
E |-----|

I Bet You Look Good On The Dancefloor

11. září 2007 v 0:01 | Martin Novák (ultimate-guitar.com) |  Taby
Intro

E|---------------------||
B|---------------------||
G|---------------------||
D|-4-4--4-4--4-4--4-4--|| x2
A|-4-4--4-4--4-4--4-4--||
E|-2-2--2-2--2-2--2-2--||

Solo:
|-------------------------------------------------------------| |-------------------------------------------------------------| |-----------------------------------------9-9-9-9-11-11-11-11-| |---------------------9-9-9-9-11-11-11-11---------------------| |-9-9-9-9-12-12-12-12-----------------------------------------| |-------------------------------------------------------------|

|--------------------------------------------------------| |--------------------------------------------------------| |-14-14-14-14-16-16-16-16-16b-16b-16b-16b-16b-16b-16b-16b| |--------------------------------------------------------| |--------------------------------------------------------| |--------------------------------------------------------|

|--------------------------------------------------|
|--------------------------------------------------| |-16-14----------14--16-14----------14-16b<18>r16--| PLAY 16TH FRET AND BEND |-------16-14-16-----------16-14-16----------------| UP TO 18 AND RELEASE. |--------------------------------------------------|
|--------------------------------------------------|

|--------------------------------------------------------------| |--------------------------------------------------------------| |16-16-16-16-14----------14------------------------------------| |---------------16-14-16----16---16-16-16-16-14----------14----| |-----------------------------------------------16-14-16----16-| |--------------------------------------------------------------|

|---------------------------------------------------------| |---------------------------------------------------------| |---------------------------------------------------------| |---------------------------------------------------------| |-14-12-14-12----------12-14-12----------12-14b151515r14\-| |-------------14-12-14----------14-12-14------------------|

Verse:

E|---------------------------||
B|---------------------------||
G|---------------------------||
D|-11-11--9-9-9-9--7-7-7--4--||
A|-11-11--9-9-9-9--7-7-7--4--||
E|-9--9---7-7-7-7--5-5-5--2--||

Chorus:

E|------------------------------------------------------------------|| B|------------------------------------------------------------------|| G|------------------------------------------------------------------|| D|-4-4-4-4-4-4-4-4--7-7-7-7-7-7-7-7--9-9-9-9-9-9-9-9-2-4-4-4-4-4-4-4|| A|-4-4-4-4-4-4-4-4--7-7-7-7-7-7-7-7--9-9-9-9-9-9-9-9-4-4-4-4-4-4-4-4|| E|-2-2-2-2-2-2-2-2--5-5-5-5-5-5-5-5--7-7-7-7-7-7-7-7-2-2-2-2-2-2-2-2||

2nd solo after the first Chorus:

E|-------------------------------------------------------|| B|-------------------------------------------------------|| G|-------------------------------------------------------|| D|--11-----9-9-9-9-9-9--7----------------------7-9-7-9---|| A|-----12-----------------9---9-9-9-7-9-9-7-9------------|| E|-------------------------------------------------------||

E|-------------------------------------------------------|| B|-------------------------------------------------------|| G|-----9----9--11-------14----14-16-14-16b---------------|| D|--11---11----------16----16----------------------------|| A|-------------------------------------------------------|| E|-------------------------------------------------------||

The View From The Afternoon

9. září 2007 v 0:01 | Martin Novák (ultimate-guitar.com) |  Taby
*Intro*

Guitar 1 & 2

...A ..........D#
e|----------------------------------------------------------------| B|---------8------------------------------------------------------| G|-6-------8------------------------------------------------------|
D|-7--x24--8--x6 (you will understand by listening to the rhythm)-| x 3 A|-7-------6------------------------------------------------------| E|-5--------------------------------------------------------------|

*Verse*


(these are the chords and where they are played)

Guitar 2

....................................................."Set" "You" "Up"
......A ...G ..C ...E ....A ..E .............C .....D ........E
e|-------------------------------------------------------------| B|----------5---9-------9----------5-----7-----9---------------| G|--6---4---5---9---6---9----------5-----7-----9---------------| D|--7---5---5---9---7---9----------5-----7-----9---------------| A|--7---5---3---7---7---7----------3-----5-----7---------------| E|--5---3-----------5------------------------------------------|

..................................................."Tain" "ment" "but"
......A ...G ..C ..E .....A ..E .............C .....D .......E
e|-------------------------------------------------------------| B|----------5---9-------9----------5-----7-----9---------------| G|--6---4---5---9---6---9----------5-----7-----9---------------| D|--7---5---5---9---7---9----------5-----7-----9---------------| A|--7---5---3---7---7---7----------3-----5-----7---------------| E|--5---3-----------5------------------------------------------|

....."Tonight Ther'll be some love"
......A ...G ..C ...E ....A ...E ............C .......D ......E
e|--------------------------------------------------------------| B|----------5---9-------9----------5-----7-----9----------------| G|--6---4---5---9---6---9----------5-----7-----9----------------| D|--7---5---5---9---7---9----------5-----7-----9----------------| A|--7---5---3---7---7---7----------3-----5-----7----------------| E|--5---3-----------5-------------------------------------------|
|-^-----^-----^----------------|
(guitar 1 plays this bit simultaneously)

"Tonight there'll be a ruckus yeah, Regardless of what's gone before"
......A ...G ...C ..E ....A ...E ...B ...E
e|--------------------------------------------------------------| B|----------5---9-------9-------9-------------------------------| G|--6---4---5---9---6---9---7---9-------------------------------| D|--7---5---5---9---7---9---9---9-------------------------------| A|--7---5---3---7---7---7---9---7-------------------------------| E|--5---3-----------5-------7-----------------------------------|

Guitar 2

......A ....G ..C ...E ...A ...E ...B ...E
e|--------------------------------------------------------------| B|----------5---9-------9-------9-------------------------------| G|--6---4---5---9---6---9---7---9-------------------------------| D|--7---5---5---9---7---9---9---9-------- x 2 ------------------| A|--7---5---3---7---7---7---9---7-------------------------------| E|--5---3-----------5-------7-----------------------------------|
(guitar 1 Plays nothing for the 2 loops of the above, then....)

Guitar 2

.......A ...G ..C ...E ...A ..E .............C .......D ......E
e|-------------------------------------------------------------| B|----------5---9-------9----------5-----7-----9---------------| G|--6---4---5---9---6---9----------5-----7-----9---------------| D|--7---5---5---9---7---9----------5-----7-----9---------------| A|--7---5---3---7---7---7----------3-----5-----7---------------| E|--5---3-----------5------------------------------------------|

Guitar 1
(this bit is played with a cool rhythm, listen to track to get hang of it)
"fancy dress"
.......A ................................................^ .......^ ......^
e|-------------------------------------------------------------| B|--14--14-14--14--14-14-----------5-----7-----9---------------| G|--14--14-14--14--14-14-----------5-----7-----9---------------| D|--14--14-14--14--14-14-----------5-----7-----9---------------| A|--12--12-12--12--12-12-----------3-----5-----7---------------| E|-------------------------------------------------------------|

Guitar 2

.......A ...G ..C ...E ...A ...E ...B ...E
e|-------------------------------------------------------------| B|----------5---9-------9-------9------------------------------| G|--6---4---5---9---6---9---7---9------------------------------| D|--7---5---5---9---7---9---9---9------------------------------| A|--7---5---3---7---7---7---9---7------------------------------| E|--5---3-----------5-------7----------------------------------|

Guitar 1
A
e|-------------------------------------------------------------| B|--14--14-14--14--14-14---------------------------------------| G|--14--14-14--14--14-14---------------------------------------| D|--14--14-14--14--14-14---------------------------------------| A|--12--12-12--12--12-12---------------------------------------| E|-------------------------------------------------------------|

*Break*



Guitar 2

e|--------------------------------------------------------------| B|--------------------------------------------------------------| G|--6-6-6---4-4-4---1-------------------------------------------| D|--7-7-7---5-5-5---2-------------------------------------------| A|--7-7-7---5-5-5---2-------------------------------------------| E|--5-5-5---3-3-3---0-------------------------------------------|

Guitar 1

e|--------------------------------------------------------------| B|--------------------------------------------------------------| G|--------------------------------------------------------------| D|--------------------------------------------------------------| A|-----------------------------12--10---------------------------| E|--5-5-5---3-3-3---0-0-0--------------12-----------------------|

Guitar 2

e|--------------------------------------------------------------| B|--------------------------------------------------------------| G|--6-6-6---4-4-4---1-------------------------------------------| D|--7-7-7---5-5-5---2-------------------------------------------| A|--7-7-7---5-5-5---2-------------------------------------------| E|--5-5-5---3-3-3---0-------------------------------------------|


Guitar 1

e|--------------------------------------------------------------| B|--------------------------------------------------------------| G|--------------------------------------------------------------| D|--------------------------------------------------------------| A|-----------------------------12--10h12-15---------------------| E|--5-5-5---3-3-3---0-0-0---------------------------------------|

Guitar 2

e|--------------------------------------------------------------| B|--------------------------------------------------------------| G|--6-6-6---4-4-4---1-------------------------------------------| D|--7-7-7---5-5-5---2-------------------------------------------| A|--7-7-7---5-5-5---2-------------------------------------------| E|--5-5-5---3-3-3---0-------------------------------------------|

Guitar 1

e|--------------------------------------------------------------| B|--------------------------------------------------------------| G|--------------------------------------------------------------| D|--------------------------------------------------------------| A|-----------------------------14-14-10-------------------------| E|--5-5-5---3-3-3---0-0-0---------------12----------------------|

Guitar 2

e|--------------------------------------------------------------| B|--------------------------------------------------------------| G|--6-6-6---4-4-4---1-------------------------------------------| D|--7-7-7---5-5-5---2-------------------------------------------| A|--7-7-7---5-5-5---2-------------------------------------------| E|--5-5-5---3-3-3---0-------------------------------------------|

Guitar 1

e|--------------------------------------------------------------| B|--------------------------------------------------------------| G|--------------------------------------------------------------| D|--------------------------------------------------------------| A|------------------------------7~--5~--3~~---------------------| E|--5-5-5---3-3-3---0-0-0---------------------------------------|

*Chorus*

"And she won't be surprised"

Guitar 2

e|--------------------------------------------------------------| B|--------------------------------------------------------------| G|---------7-9-7---------------7-9-7~---------------------------| D|--7--10--------10-----7--10------------------ x 4 ------------| A|--------------------------------------------------------------| E|--------------------------------------------------------------|

Guitar 1
F
e|--------------------------------------------------------------| B|-10-10-10-10-10-10-10-10-10-10-10-10-10-10-10-10--------------| G|-10-10-10-10-10-10-10-10-10-10-10-10-10-10-10-10--------------| D|-10-10-10-10-10-10-10-10-10-10-10-10-10-10-10-10----- 1 ------| A|-8--8--8--8--8--8--8--8--8--8--8--8--8--8--8--8---------------| E|--------------------------------------------------------------|
D
e|--------------------------------------------------------------| B|-7-7-7-7-7-7-7-7-7-7-7-7-7-7-7-7------------------------------| G|-7-7-7-7-7-7-7-7-7-7-7-7-7-7-7-7------------------------------| D|-7-7-7-7-7-7-7-7-7-7-7-7-7-7-7-7--------------------- 2 ------| A|-5-5-5-5-5-5-5-5-5-5-5-5-5-5-5-5------------------------------| E|--------------------------------------------------------------|
F
e|--------------------------------------------------------------| B|-10-10-10-10-10-10-10-10-10-10-10-10-10-10-10-10--------------| G|-10-10-10-10-10-10-10-10-10-10-10-10-10-10-10-10--------------| D|-10-10-10-10-10-10-10-10-10-10-10-10-10-10-10-10----- 3 ------| A|-8--8--8--8--8--8--8--8--8--8--8--8--8--8--8--8---------------| E|--------------------------------------------------------------|
D
e|--------------------------------------------------------------| B|-7-7-7-7-7-7-7-7-7-7-7-7-7-7-7-7------------------------------| G|-7-7-7-7-7-7-7-7-7-7-7-7-7-7-7-7------------------------------| D|-7-7-7-7-7-7-7-7-7-7-7-7-7-7-7-7--------------------- 4 ------| A|-5-5-5-5-5-5-5-5-5-5-5-5-5-5-5-5------------------------------| E|--------------------------------------------------------------|

"And you should bear that in mind tonight"

Guitar 1 & 2

(both do same as guitar 1 above but a muted chords between each strum)

Eg.

e|----------------|
B|-10-x--10-x--10-|
G|-10-x--10-x--10-|
D|-10-x--10-x--10-| (Listen to the track to understand fully)
A|-8--x--8--x--8--|
E|----------------|

*Bridge*
(This is the part where it goes quiet and both guitars share a chord each)

Guitar 2

......A ......C ......A ......B
e|--------------------------------------------------------------| B|--------5-----------------------------------------------------| G|--6-----5-----6-----8-----------------------------------------| D|--7-----5-----7-----9-----------------------------------------| A|--7-----3-----7-----9-----------------------------------------| E|--5-----------5-----7-----------------------------------------|

Guitar 1

...........G ......E ......E ......E
e|--------------------------------------------------------------| B|-----------9-----9-----9--------------------------------------| G|-----4-----9-----9-----9--------------------------------------| D|-----5-----9-----9-----9--------------------------------------| A|-----5-----7-----7-----7--------------------------------------| E|-----3--------------------------------------------------------|

*Outro*
( Same as intro )

Final chord is
e|--4~--
B|--6~--
G|--5~--
D|--6~--
A|--4~--
E|------

505 tabs

7. září 2007 v 0:01 | Martin Novák (ultimate-guitar.com) |  Taby
Chords used:
Dm Em
e|---5----7-----|
B|---6----8-----|
G|---7----9-----|
D|---7----9-----|
A|---5----7-----|
E|---X----X-----|

I'm going back to 505 if it's a 7 hours flight or a 45 minute drive In my imagination you're waiting lying on your side with your hands between your thighs

Dm Em

Dm .........................................Em
Stop and wait a sec when you look at me like that

................Dm ................................Em
My darling what did you expect? I probably still adore you

.................Dm ...................................Em
With your hands around my neck Or I did last time I checked

Dm Em

......Dm .............................Em ...................................................Dm
I'm not shy of a spark The knife twists at the thought that I should fall short of the mark

...Em ........................................Dm
Frightened by the bite no it's no harsher than the bark

.....Em ....................................Dm ..........................Em
A middle of adventure, such a perfect place to start

e|---12-10--------------| riff 1
B|---------13-12-10-----|
G|----------------------|
D|----------------------|
A|----------------------|
E|----------------------|

..............Dm .........................Em
I'm going back to 505 If it's a 7 hour flight
........Dm ......................Em ........................................Dm
Or a 45 minute drive In my imagination you're waiting lying on your side
..................Em .................................Dm Em
With your hands between your thighs
e|---12-10--------------------------|
B|---------13-12(drums stop)--------|
G|----------------------------------|
D|----------------------------------|
A|----------------------------------|
E|----------------------------------|
e|---------------------------------------------------------------| B|---------------------------------------------------------------| G|---------------------------------------------------------------| D|--14--12--10--9--7--9--10--10101010--9-9999/14--14141414-------| A|---------------------------------------------------------------|
e|----------------------------------------------------------12---| B|----------------------------------------------------------12---| G|----------------------------------------------------------12---| D|--14--12--10--9--7--9--10--10101010--9-9999/14--14141414-------| A|---------------------------------------------------------------| E|---------------------------------------------------------------|
..........................Dm
But I crumble completely when you cry
......Em ................................................Dm
It seems like once again you've had to greet me with goobye
.........Em ..................................Dm
I'm always just about to go and spoil the surprise
...............Em ........................................Dm ....Em
Take my hands off of your eyes too soon
................Dm .......................Em
I'm going back to 505 If it's a 7 hour flight
........Dm ......................Em ........................................Dm
Or a 45 minute drive In my imagination you're waiting lying on your side
................Em ..............................................Dm ......Em
With your hands between your thighs And a smile e|-------------------------------------------------------------| B|----17-15-13-12-10-12-13-13131313-12-12121212/17-17171717----| G|-------------------------------------------------------------| (x4) D|-------------------------------------------------------------| A|-------------------------------------------------------------| E|-------------------------------------------------------------|
e|-------------------------------------------------------------| B|-------------------------------------------------------------| G|-------------------------------------------------------------| D|--14--12--10--9--7--9--10--10101010--9-9999/14--14141414-----| A|-------------------------------------------------------------| E|-------------------------------------------------------------|
e|-----------------------------------------------12------------| B|-----------------------------------------------12------------| G|-----------------------------------------------12------------| D|--14--12--10--9--7--9--10--10101010--9-9999/14---------------| A|-------------------------------------------------------------| E|-------------------------------------------------------------|
| / ....slide up
| \ ....slide down
| h ....hammer-on
| p ....pull-off
| ~ ....vibrato
| + ....harmonic
| x ....Mute note

Old Yellow Bricks

5. září 2007 v 0:01 | Martin Novák (ultimate-guitar.com) |  Taby
.::Intro & Verse::.
E|--------------------------------------------|
B|--------------------------------------------|
G|--------------------------------------------|
D|--------------------------------------------| X6 A|------------7-7-7-77--8-8-8-88--5-5-5-55----|
E|---5-5-5-55---------------------------------|

.::Chorus::.
E|---------------------------| .................. |------|
B|---------------------------| .................. |------|
G|--7--9--10---7-------------| ............... |--7---|
D|--7--9--10---7-------------| .....X3..... |--7---| (Let It Ring)
A|--5--7--8----9-------------| ............... |--5---|
E|---------------------------| ................. |------|

.::Verse::.
E|--------------------------------------------|
B|--------------------------------------------|
G|--------------------------------------------|
D|--------------------------------------------| X4 A|------------7-7-7-77--8-8-8-88--5-5-5-55----|
E|---5-5-5-55---------------------------------|

E|-------------|
B|--5-6-5-4----|
G|-------------|
D|-------------| X8 (comes In After X2 Of The Above)
A|-------------|
E|-------------|

.::Chorus::.
E|---------------------------|
B|---------------------------|
G|--7--9--10---7-------------|
D|--7--9--10---7-------------| X3
A|--5--7--8----9-------------|
E|---------------------------|

.::Bridge::.
E|---------------------------| ............ |-----------------|
B|---------------------------| ............ |-----------------|
G|---------------------------| ............ |-----------------|
D|----9-10-------------------| .....X3..... |---9-10----------| (Ends On That) A|--7-------5-7---2-3-5-7----| ............ |-7------5-7------|
E|---------------------------| ............ |------------555--|

E|-------------|
B|--5-6-5-4----|
G|-------------|
D|-------------| X8 (Over Bass)
A|-------------|
E|-------------|

E|--------------------------------|
B|--12-13-12-13-12-13-12131213----|
G|--------------------------------| X4 (Comes In After X4 Of The Above) D|--------------------------------|
A|--------------------------------|
E|--------------------------------|

.::Chorus::.
E|---------------------------| ............ |------|
B|---------------------------| ............ |------|
G|--7--9--10---7-------------| ............ |--7---|
D|--7--9--10---7-------------| .....X7..... |--7---| (Let It Ring)
A|--5--7--8----9-------------| ............ |--5---|
E|---------------------------| ............ |------|

E|-------------|
B|--5-6-5-4----|
G|-------------|
D|-------------| X6 (Comes In After X4 Over The Above)
A|-------------|
E|-------------|

.::Outro::.
E|--------------------------------------------|
B|--------------------------------------------|
G|--------------------------------------------|
D|--------------------------------------------| X2 A|------------7-7-7-77--8-8-8-88--5-5-5-55----|
E|---5-5-5-55---------------------------------|

E|-------------|
B|--5-6-5-4----|
G|-------------|
D|-------------| X8
A|-------------|
E|-------------|

E|--------------------------------|
B|--12-13-12-13-12-13-12131213----|
G|--------------------------------| X4 (Comes In After X4 Of The Above) D|--------------------------------|
A|--------------------------------|
E|--------------------------------|

The Bad Thing

3. září 2007 v 0:01 | Martin Novák (ultimate-guitar.com) |  Taby
 Chorus:

Em Bm
Do the bad thing
Am G F#
Take off your wedding ring
Em Bm
But it wont make it that much easier
Am G F#
It might make it worse


Verse1: (rhythm |Dm 2 3 C| A 2 3 4|Dm 2 3 C|A 2 3 4|

Dm
The night's like a whirlwind
C A
Somebody's girlfriend is talking to me
Dm C A
But it's alright , she's saying that he's not that he's gonna slap me
A
Or try to attack me, he's not the jealous type

BRIDGE: heavy downstrokes!

Dm Am
I've been before and all these capers makers to the floor
Dm Am
Then to ignore, she's talking but I'm not entirely sure

Dm Am, Dm Am, Dm Am, F# G

CHORUS: (same progression Em, Bm, Am, G F# x2)

Do the bad thing
Take off your wedding ring
But it wont make it that much easier
It might make it worse

Verse2:

Dm (strum once, then bass only!)
Somebody's partner is talking to me
But I don't that is what she isn't
She murmurs things to confirm the tragedy is true
And I knew how could she not she could have anyone she wants
And I'm struggling to think of an immediate response

Bridge: Dm Am

Like I don't mind
Be a big mistake for you to wait and help me waste your time
Really love it's fine
Said really love it's fine

Dm Am x 3 F# G

FINAL CHORUS: same chords as original chorus, Em. Bm, Am, G F#

And the first time it occurred that there was something to destroy
I knew before the invitation that there was this ploy
Oh but she carried on suggesting
I struggled to refuse
She said it's the red wine this time
But that is no excuse

Em

If You Were There, Beware

1. září 2007 v 0:01 | Martin Novák (ultimate-guitar.com) |  Taby
Intro - Guitar 1
E---------|
B---------|
G---------|
D--5--5--5| x17
A-7-67-67-|
E---------|

Guitar 1
E--------|----------|
B--8--8--|-5-87-5-87|
G-9-89-89|5----5----|
D--------|----------|
A--------|----------|
E--------|----------|

Guitar 2
E---------|---------------|
B---------|---------------|
G---------|---------------|
D--5--5--5|---------------|
A-7-67-67-|5-33333-777-999|
E---------|---------------|

Verse
E----|
B----|
G----|
D-9-5|
A-9-5|
E-7-3|

Guitar 1 ...............Guitar 2
E------7-------7-|------------------------|
B-585-7-7-585-7-7|------------------------|
G----------------|------------------------|
D----------------|---------9------------9-|
A----------------|7-10-7--9-9-7--10-7--9-9|
E----------------|------------------------|

Verse
E----|
B----|
G-9-5|
D-9-5|
A-7-3|
E----|

Solo
E---------------------------|
B---------------------------|
G---------------------------|
D---------------------------|
A--------333-22-2---222---22| x2
E-555-333--------000---000--|

E------------------------------|
B------------------------------|
G------------------------------|
D------------------------------|
A--------333-22-2-333---222-555|
E-555-333------------333-------|

E--------------------------|
B--------------------------|
G--------------------------|
D-------------------------2|
A-333---222---333---22222-2|
E----333---222---333------0|(ring)

Guitar 1 "there's a circle of witches..."
E---------|
B---------|
G---------|
D--5-5-5-5|
A-6-7-6-7-|
E---------|

Guitar 2 (background) "i dunno what it is..."
E------------|
B------------|
G-77-54-77-54|
D------------|
A------------|
E------------|

Guitar 1
E-----------|----------|
B-----------|----------|
G-----------|7-5555-999|
D--5--5--67-|----------|
A-7-67-67---|----------|
E-----------|----------|

Intro:
Guitar 1

E--------|----------|
B--8--8--|-5-87-5-87|
G-9-89-89|5----5----|
D--------|----------|
A--------|----------|
E--------|----------|

Guitar 2
E---------|---------------|
B---------|---------------|
G---------|---------------|
D--5--5--5|---------------|
A-7-67-67-|5-33333-777-999|
E---------|---------------|

Ending:

Guitar 1 ..........Guitar 2
E-------------|-------------|
B-8(ring) 8765|-------------|
G-------------|-------------|
D-------------|5 (ring) 5432|
A-------------|-------------|
E-------------|-------------|