Srpen 2007

This House Is A Circus

30. srpna 2007 v 0:01 | Martin Novák (ultimate-guitar.com) |  Taby
intro
e---------|
b-7-8-8-7-|
g-7-8-8-7-|
d---------|
a---------|
e---------|

e----------------|
b--16-17--17--16-|
g--16-17--17--16-|
d----------------|
a----------------|
e----------------|
or the simple

e--2--3--|--3--2-|
b--3--4--|--4--3-|
g--4--5--|--5--4-|
d--------|-------|
a--------|-------|
e--------|-------|

Chorus
e---------------|
b---------------|
g---------------|
d---------------|
a-------9-------|
e--7-5-----8----|

Middle bit
e---------------------------------|
b---------------------------------|
g---------------------------------|
d--------------11--------------7--|
a--5-5-5-7--9--9--10-10-10-7-9-5--|
E--7-7-7-5--7-----8--8--8--5-7----|

(try playing this on different strings it sounds better)

e-----------------------------------------------| b-12-15-12-15-12-15--12-15-11-16-12-15-11-16----| g-----------------------------------------------|
d-----------------------------------------------|
a-----------------------------------------------|
E-----------------------------------------------|
e---------------------------------------|
b---------------------------------------|
g---------------------------------------|
d-9--9-7--7-11-11-7-6---------------7---|
a-7--7-5--5-9--9--5-4--9-9-9-9--7-9-5---|
E----------------------7-7-7-7--5-7-----|

Ending 1st guitar
e---------------------------------|
b---------------------------------|
g---------------------------------|
d-----------------11-11-----------|
a--9-9-9-9-9--7-7-9--9--10-10-9---|
E--7-7-7-7-7--5-5-------8--8--7---|

2nd guitar
e------------------------------|
b------------------------------|
g------------------------------|
d------------------------------|
a---------------9-----------5--|
E-7-7-7-7-7-5-7---8-8-8-5-7----|

(this is just mainly played on the b string but ive seen him playin the chord aswell) e---------------------------------|
b-12-13--15----19--17--15--13--12-|
g---------------------------------|
d-9--10--12----16--14--12--10--9--|
a---------------------------------|
E---------------------------------|

Do Me A Favour

28. srpna 2007 v 0:01 | Martin Novák (ultimate-guitar.com) |  Taby
Chords
D (x57775)
E (x79997)
F#m(244222)in chorus play as (x9-11-11-10-9)
D5 (x577xx)
E5 (x799xx)
F#5(x9-11-11-xx)

Intro:

G:--------------------------|
D:--------------------------|
A:------4-4----------4-4-4--|
E:--2-5-------2-2-5---------|

The F#m chord is strummed downwards on top of this bass riff all the way until the chorus:
e:-2----|
B:-2----|
G:-2----|
D:-4----|
A:-4----|
E:-2----|

Then the 2nd guitar comes in and plays this:
e:--9---7--5--2------4-----|
B:--10--9--7--2------2-----|
G:-------------------- x 2-|
D:-------------------------|
A:-------------------------|
E:-------------------------|

Then
e:--9---7--5--2-----9---7--4------|
B:--10--9--7--2-----10--9--2------|
G:-------------------------- x 2-|
D:--------------------------------|
A:--------------------------------|
E:--------------------------------|

3rd time
e:--9---7--5--2-----4 <---------| Do not play these last two notes on the B:--10--9--7--2-----2------------| fourth time.
G:------------------- x 4--------|
D:-------------------------------|
A:-------------------------------|
E:-------------------------------|

then this is played by the lead guitar in the chorus over the chords:
D,F#m,E
e:--------------------------------------------------| B:--------------------------------------------------| G:---------11--9--6---4p2h4---2-----2---------- x 3-| D:-------------------------------4-----4--2~~~~-----| A:------9-------------------------------------------| E:--------------------------------------------------|

on the third time there as an additional part which is
e:-------------------------------------------|
B:-------------------------------------------|
G:---------------------2--4--6--4--6--9 x 1-|
D:---4--2----------4-------------------------|
A:-------------------------------------------|
E:-------------------------------------------|

Back to:
e:--9---7--5--2-----|
B:--10--9--7--2-----|
G:------------------| x 3
D:------------------|
A:------------------|
E:------------------|

This interlude part comes in
e:-----------------------------------------|
B:-----------------------------------------|
G:-----------------------------------------|
D:-----------------------------------------|
A:----4---2----0-------------------0-----2-|
E:------------------4---2----4-------------|

The F#m chord is then played over this riff again:
e:--9---7--5--2-----4------|
B:--10--9--7--2-----2------|
G:------------------- x 3-|
D:-------------------------|
A:-------------------------|
E:-------------------------|

Then the bass plays these two basslines: (listen to know when to play each)
G:------------------------ -----------------------|
D:------------------------ ----------2----------2-|
A:-----2--4---------2--4-- and --------4---------4----|
E:2--5--------2-2-5------- -2---5------2-2-5------|

finally this is the outro to the song rhythm guitar:
D5 F#5 E5
e:xxxxxxxxxxxxxxxxxxxx
B:xxxxxxxxxxxxxxxxxxxx
G:77777777111111119999 x 8
D:77777777111111119999
A:555555559-9-9-9-7777
E:xxxxxxxxxxxxxxxxxxxx

lead (tremolo picking) ive put the notes you play for each bar of the outro there are 8 bars but this is only played for 4 of the bars (all notes played on D string):
1st bar:4444444444444444444
2nd bar:7777777777777777777
3rd bar:99999999111111121212
4th bar:1111112121212121412

bass follows the chord sequence apart from this riff:
G:-----------------------------|
D:-----------------------------|
A:------22--44--77--55--44--22-|
E:22-55------------------------|

Only Ones Who Knows

26. srpna 2007 v 0:01 | Martin Novák (ultimate-guitar.com) |  Taby
 ==Intro==

F A7 Dm F Bb Gm F A7 Dm F Bb Gm F




==1st verse==

F A7 Dm
In a foreign place, the saving grace was the feeling
F Bb
And that it was a heart that he was stealing
Gm F
Oh he was ready to impress and the fierce excitement
A7 Dm
The eyes are bright he couldnt wait to get away
F Bb
I bet the juliet was just the icing on the cake
Am Gm
Make no mistake no




==Chorus==

Bb Bbm Am
And even if somehow we could have shown you the place you wanted
D7 Gm Bbm
Well I'm sure you could have made it that bit better on your own




==2nd verse==

F A7 Dm
And I bet she told a million people that she'd stay in touch
F Bb
Well all the little promises they dont mean much
Gm
When theres memories to be made
F A7 Dm
And I hope you're holding hands by new years eve
F Bb
They made it far too easy to believe
Am Gm
That true romance cant be acheived these days




==Chorus==

Bb Bbm Am
And even if somehow we could have shown you the place you wanted
D7 Gm
Well I'm sure you could have made it that bit better on your own
Bbm
You are the only ones who know




==Outro==

F A7 Dm F Bb Am Gm Gm Gm F

Fluorescent adolescent

24. srpna 2007 v 0:01 | Martin Novák (ultimate-guitar.com) |  Taby
Intro/Break Bass

G:-------------------------------------------------|
D:--------------------------------4----------------| A:----------2----4--2------4-2-4-------------------| E:---0-2-4------------2------------------2-2-4-4-7-|

verse chords

E C#m F#m B
7---4---2---7-|
9---5---2---7-|
9---6---2---8-| Just repeat this pattern as necessary until chorus.
9---6---4---9-| The strumming pattern is easy to figure out.
7---4---4---9-|
x---x---2---7-|

Chorus Chords
F#m B A
2----7---5-|
2----7---5-|
2----8---6-|
4----9---7-|
4----9---7-|
2----7---5-|

I have listed the lyrics below just in case there is any confusion on how the chorus is played:

F#m F#m (down strokes)
oh the boys a slag

B B (down strokes)
the best you ever had

F#m F#m (down strokes)
the best you ever had

F#m F#m B B B B <-(up to here is all down strokes is just a memory of those dreams but start strumming after this)

F#m B
as daft as they may seem

F#m (pause)
as daft as they may seem my love

A (slowly strum down)
when you dream them up

Then back to the verse the lead also comes in at this point with a little melodic riff I have had a stab at this but i'm not sure if its 100% correct but here it is anyway:

e:----7-9-----------------------2-4-|
B:---9---------7---4--2--------4----|
G:-9---------8---6-----------4------|
D:----------------------------------|
A:----------------------------------|
E:----------------------------------|

This riff also comes in a bit later on in the song:

e:----7-9----7-----4~~~-------------|
B:---9------------------------------|
G:-9--------------------------------| repeat as necessary
D:----------------------------------|
A:----------------------------------|
E:----------------------------------|

Balaclava

22. srpna 2007 v 0:01 | Martin Novák (ultimate-guitar.com) |  Taby
Ok so there is 2 tabs already for this but this is my version with the corrections and bits missed out by the others. I've made this tab in a way so that any guitarist can learn this song no matter what level, to help learn this song it helps if you have the song on whilst trying to learn certain bits for timing etc.

Intro (Bass only)

Intro lyrics:

Running off over next doors garden before the hour is done It's more a question of feeling than it is a question of fun The confidence is the balaclava I'm sure you'll baffle 'em good But the end in reek of salty cheeks and runny make up alone! Oh well...

Intro bass:

G|------------------------------------|
D|------------------------------------|
A|----5-7-9---4---5----5-7-9---4---5--|
E|--7-------5---3----7-------5---3----|

Verse 1:

Lyrics:

Blood runs down the face of a boy bewildered and scorned And you find yourself in a scurmage where you wish you'd never been born An you tie to yourself to the tracks and there isn't no going back And it's wrong wrong wrong but we'll do it anyway cause we love a bit of trouble!

Guitar 1:

E|--------------------------|
B|--------------------------|
G|-----------11------12-14--| x4
D|-----12-14------11--------|
A|--14----------12----------|
E|--------------------------|

Guitar 2:

E|-------------------|
B|-------------------|
G|-------------------|
D|--------------5-7--| x4
A|----5-7-9---4------|
E|--7-------5--------|

Bridge:

Guitar 1:

E|----------------------------------------------------------| B|----------------------------------------------------------| G|----------------------------------------------------------| D|----------------------------------------------------------| A|-----9-------------------------------9--------------------| E|-7-7--10-7--5-7-5-7-5-2-2-3-5--77777---10-7--3-5-3-5-3-2--|

Leave the last note to ring on this bar (F# or 2nd fret on the E).

E|-----------------------------------------------------------------| B|-----------------------------------------------------------------| G|-----------------------------------------------------------------| D|-----------------------------------------------------------------| A|-----9----------------------------------9------------------------| E|-7-7--10-7-s17-5-7-5-7-5-2-2-3-5--77777---10-7-s17--3-5-3-5-3-2--|

Guitar 2

E|---------------------------------------------------------------| B|---------------------------------------------------------------| G|---------------------------------------------------------------| D|------11--------------------------------11---------------------| A|-9-9--9---12-9--7-9-7-9-7--44-5-7--9999-9---12-9--5-7-5-7-5-4--| E|-7-7------10-7--5-7-5-7-5--22-3-5--7777-----10-7--3-5-3-5-3-2--|

Again leave the last not to ring.


E|---------------------------------------------------------------| B|---------------------------------------------------------------| G|---------------------------------------------------------------| D|------11--------------------------------11---------------------| A|-9-9--9---12-9--7-9-7-9-7--44-5-7--9999-9---12-9--5-7-5-7-5-4--| E|-7-7------10-7--5-7-5-7-5--22-3-5--7777-----10-7--3-5-3-5-3-2--|

Verse 2:

Lyrics Are you pulling her from a burning building or throwing her to the sharks? You can only hope that the ending is as pleasurable as the start The confidence is the balaclava I'm sure you'll baffle them straight And it's wrong wrong wrong and she can hardly wait.

Guitar 1:

E|-------------|
B|-------------|
G|------12-14--|
D|---11--------|
A|-12----------|
E|-------------|

E|--------------------------|
B|--------------------------|
G|-----------11------12-14--| x2
D|-----12-14------11--------|
A|--14----------12----------|
E|--------------------------|

E|-----------------------|
B|-----------------------|
G|-----------11----------|
D|-----12-14------11-11--|
A|--14----------12-------|
E|-----------------------|

Guitar 2:

E|----------|
B|----------|
G|----------|
D|-----5-7--|
A|--4-------|
E|-5--------|

E|-------------------|
B|-------------------|
G|-------------------|
D|--------------5-7--| x2
A|----5-7-9---4------|
E|--7-------5--------|

E|-----------------|
B|-----------------|
G|-----------------|
D|-----------------|
A|----5-7-9---4-4--|
E|--7-------5------|

Pre-Bridge:

Lyrics:

That's right, he won't let her out his sight Now the shaggers perform and the daagers are drawn Who's the crooks in this crime? That's right, he won't let her out his sight Now the shaggers perform and the daagers are drawn Who's the crooks in this....CRIME!?

Guitar 1:

E|-----------------------------------|
B|-----------------------------------|
G|-----------------------------------| x2
D|--9------7------5-----4-----9------|
A|--9------7------5-----4-----9------|
E|--7-x16--5-x16--3-x8--2-x8--7-x16--|

E|------------|
B|------------|
G|------------|
D|------------|
A|-----9------|
E|--77--10-7--|

Guitar 2:

Hit the F# chord (9th on the A string) on the words "right" and after "perform" on the first time round:

E|-----------------------------|
B|-----------------------------|
G|-11---11---11---12-12-12-12--|
D|-11---11---11---12-12-12-12--| x2
A|-9----9----9----10-10-10-10--|
E|-----------------------------|

Bridge:

Guitar 1:

E|-------------------------------------------------| B|-------------------------------------------------| G|-------------------------------------------------| D|-------------------------------------------------| A|--------------------------9----------------------| E|-5-7-5-7-5-2-2-3-5--77777---10-7-s17-3-5-3-5-3-2--|

Leave the last note to ring on this bar (F# or 2nd fret on the E).

E|------------------------------------------------------------------| B|------------------------------------------------------------------| G|------------------------------------------------------------------| D|------------------------------------------------------------------| A|-----9-----------------------------------9------------------------| E|-7-7---10-7-s17-5-7-5-7-5-2-2-3-5--77777---10-7-s17--3-5-3-5-3-2--|

Leave the last note to ring again, then straight into the outro riff.

Guitar 2

E|------------------------------------------------|
B|------------------------------------------------|
G|------------------------------------------------| D|-------------------------11---------------------| A|-7-9-7-9-7--44-5-7--9999-9---12-9--5-7-5-7-5-4--| E|-5-7-5-7-5--22-3-5--7777-----10-7--3-5-3-5-3-2--|

Leave the last not to ring.

E|---------------------------------------------------------------| B|---------------------------------------------------------------| G|---------------------------------------------------------------| D|------11--------------------------------11---------------------| A|-9-9--9---12-9--7-9-7-9-7--44-5-7--9999-9---12-9--5-7-5-7-5-4--| E|-7-7------10-7--5-7-5-7-5--22-3-5--7777-----10-7--3-5-3-5-3-2--|

Again leave the last not to ring.

Pre-Outro riff:

Lyrics:

That's right he won't let her out his sight That's right he won't let her out his sight That's right he won't let out his sight Will you be able to boast that this day held the most flawless heist of all time

Guitars 1 and 2:

E|----------------------------------------|
B|----------------------------------------|
G|----------------------------------------| x12
D|-----------------------------5555-7777--|
A|-----5555-7777-9999-----4444------------|
E|-7777----------------5555---------------|

Outro - Bass only:

Lyrics:

You knew that it would be trouble right before the very first kiss Quiet and Unassuming but you heard that they were the naughtiest She pleaded with you to take it off but you resisted and thought 'sorry Sweetheart I'd much rather, keep on the balaclava

Bass:

E|---------------------|
B|---------------------|
G|---------------------|
D|---------------------|
A|----5---4---4---7----|
E|--7---0---5---3---5--|

The end.

D Is For Dangerous

20. srpna 2007 v 0:01 | Martin Novák (ultimate-guitar.com) |  Taby
Tuning:Standard

Not perfectly in key and not a perfect tab but sounds rite to me.
iv tabbed out the 4 riff's so all you need to do is listen to the track and decide what parts go where.

chords used:

C D# G A# G* C* F F# G# e|---8-------6-------10-------6-------3-------3-------8-------9-------4----| B|---8-------8-------12-------6-------3-------5-------10------11------4----| G|---9-------8-------12-------7-------4-------5-------10------11------5----| D|---10------8-------12-------8-------5-------5-------10------11------6----| A|---10------6-------10-------8-------5-------3-------8-------9-------6----| E|---8-------X-------X--------6-------3-------X-------X-------X-------4----|

Riff 1:

C D# G A# C A# G
e|---8-8-8---6---10-10---6--8-8-8--8---333---------------------------| B|---8-8-8---8---12-12---6--8-8-8--8---333---------------------------| G|---9-9-9---8---12-12---7--9-9-9--7---444---------------------------| D|---101010--8---12-12---8--101010-8---555---------------------------| A|---101010--6---10-10---8--101010-8---555---------------------------| E|---8-8-8---X---X--X----6--8-8-8--6---333---------------------------|

Riff 2:

F A#C
e|---8-8-8-8--/6-/3--------------------------------------------------------| B|---10101010-/8-/5--------------------------------------------------------| G|---10101010-/8-/5--------------------------------------------------------| D|---10101010-/8-/5--------------------------------------------------------| A|---8-8-8-8--/6-/3--------------------------------------------------------| E|---X-X-X-X--/X-/X--------------------------------------------------------|

Riff 3:

C F#
e|--8-8-8-8--9--9--9-------------------------------------------------------| B|--8-8-8-8--11-11-11------------------------------------------------------| G|--9-9-9-9--11-11-11------------------------------------------------------| D|--10101010-11-11-11------------------------------------------------------| A|--10101010-9--9--9-------------------------------------------------------| E|--8-8-8-8--X--X--X-------------------------------------------------------|

Riff 4:

C D# A# G# G
e|--8-8--6--6-6-6--4-4-4--3------------------------------------------------| B|--8-8--8--6-6-6--4-4-4--3------------------------------------------------| G|--9-9--8--7-7-7--7-7-7--4------------------------------------------------| D|--1010-8--8-8-8--6-6-6--5------------------------------------------------| A|--1010-6--8-8-8--6-6-6--5------------------------------------------------| E|--8-8--X--6-6-6--4-4-4--3------------------------------------------------|

Teddy Picker

18. srpna 2007 v 0:01 | Martin Novák (ultimate-guitar.com) |  Taby
intro/verse

E|----------------------------------------|
B|----------------------------------------|
G|----------------------------------------|
D|----------------------------------------|
A|-----6-5-------6-5-------6-5-------6-5--|
E|-5-5-----4-5-5-----4-5-5-----4-5-5------|

E|----------------------------------------|
B|----------------------------------------|
G|----------------------------------------|
D|----------------------------------------|
A|--------------------3-----6-5-------6-5-|
E|-5-0-0-4-0--0-0-4-0---5-5-----4-5-5-----|

E|----------------------------------------|
B|----------------------------------------|
G|----------------------------------------|
D|----------------------------------------|
A|-----6-5-------6-5-------6-5-------6-5--|
E|-5-5-----4-5-5-----4-5-5-----4-5-5------|

E|----|
B|----|
G|-14-| this chord gets played from time to time
D|-14-|
A|-12-|
E|----|

chorus

Rhythm
E|--------------------|
B|--------------------|
G|10--9--14-14-14-14--|
D|10--9--14-14-14-14--|
A|-8--7--12-12-12-12--|
E|--------------------|

E|--------------------|
B|--------------------|
G|10--9--8-8-8-8-8----|
D|10--9--8-8-8-8-8----|
A|-8--7--6-6-6-6-6----|
E|--------------------|

Lead

E|--------------------|
B|--------------------|
G|----14-17-19-16--14-|
D|-15--------------14-|
A|-----------------12-|
E|--------------------|

2nd chorus

Lead

E|-----------------|
B|-----------------|
G|-14-17-19-16--14-|
D|-15-----------14-|
A|--------------12-|
E|-----------------|

E|---------------------------|
B|---------------------------|
G|----14-17-19-19-17-16-14---|
D|-15---------------------14-|
A|---------------------------|
E|---------------------------|

solo this is played with some sort of tremelo/phaser effect

E|-----------------------------15---------|(x2)
B|-5-5-5/18-17-17-17-17-17-17-------------|
G|----------------------------------------|
D|----------------------------------------|
A|----------------------------------------|
E|----------------------------------------|

E|-----17-------------------15------------|
B|-5-5----18-17-17-17-17-17---------------|
G|----------------------------------------|
D|----------------------------------------|
A|----------------------------------------|
E|----------------------------------------|

E|-----17---------------------------------|
B|-5-5----18-17-15-15-13-13-12-10-10-10-8-|
G|----------------------------------------|
D|----------------------------------------|
A|----------------------------------------|
E|----------------------------------------|

you dont have to play that A chord as the rhythm guitarist plays it but it sounds good. and put a vibrato on that A(17)note

E|--5-5/-17-17-17-17-17------|(x3)
B|--5-5----------------------|
G|---------------------------|
D|---------------------------|
A|---------------------------|
E|---------------------------|

E|--17-15-13-12----------12-17--|
B|--------------13-12-----------|
G|--------------------14--------|
D|------------------------------|
A|------------------------------|
E|------------------------------|

and you know the rest

Glyn Jones - bývalý člen

16. srpna 2007 v 0:01 | Martin Novák |  Zajímavosti
- Článek v časopisu Blender odhalil, že Alex nebyl první zpěvák kapely

- Jako první měl být Glyn Jones, po jehož odchodu se Alex teprve dostal ke zpěvu

- Chodil na školu Stocksbridge High School

- Vyjádřil se, že Alex byl rád, že vůbec mohl hrát na kytaru a tak on zpíval

- Texty psal on i Alex

- AM považoval za pouhou bandu dětí, které se nudí

Brianstorm

14. srpna 2007 v 0:01 | Martin Novák (ultimate-guitar.com) |  Taby
INTRO
e|--------------------------------------------|
B|--------------------------------------------|
G|-1010101010101010101010101010101010---------|
D|-1010101010101010101010101010101010---------|
A|-8-8-8-8-8-8-8-8-8-8-8-8-8-8-8-8-8----------|
E|--------------------------------------------|

2nd guitar comes in and this riff is played on top
e|--------------------------------------------|
B|--------------------------------------------|
G|-1010101010101010101010101010101010---------| D|-1010101010101010101010101010101010---------| A|-8-8-8-8-8-8-8-8-8-8-8-8-8-8-8-8-8----------|
E|--------------------------------------------|
e|---------------|
B|---------------| (x8)
G|---------------|
D|---------------|
A|-8-8-8-8-8-----|
E|-----------9-8-|
Then
e|-----------------------------------|
B|-----------------------------------|
G|-----------------------------------|
D|-----------------------------------|
A|-88888-4-33333--44444-6-77777-10-8-|
E|-----------------------------------|
Verse
I guess both guitars are playing the same thing but ones either playing the root or is just Playing with a higher tone
e|-----------------------|
B|-----------------------|
G|-10-6-5--6-6-8-9-12-10-|
D|-10-6-5--6-6-8-9-12-10-|
A|--8-4-3--4-4-6-7-10--8-|
E|-----------------------|
e|-----------------------------------|
B|-----------------------------------|
G|-----------------------------------|
D|-----------------------------------|
A|-88888-4-33333--44444-6-77777-10-8-|
E|-----------------------------------|
e|-----------------------|
B|-----------------------|
G|-10-6-5--6-6-8-9-12-10-|
D|-10-6-5--6-6-8-9-12-10-|
A|--8-4-3--4-4-6-7-10--8-|
E|-----------------------|
2nd guitar plays this
e|-13-13-13-13-13-------------|
B|-13-13-13-13-13-13----------| (x3)
G|-------------------15-13-12-|
D|----------------------------|
A|----------------------------|
E|----------------------------|

e|-13-13-13-13-13--12-12-12-12-12-|
B|-13-13-13-13-13--12-12-12-12-12-|
G|--------------------------------|
D|--------------------------------|
A|--------------------------------|
E|--------------------------------|

you can play it like 5th chord aswell and then add the octave root if u want

e|-13-13-13-13--------------------|
B|-13-13-13-13-13-----------------|
G|-10-10-10-10----15-13-12--------|
D|--------------------------------|
A|--------------------------------|
E|--------------------------------|

nebo

e|--------------------------------|
B|18-18-18------------------------|
G|17-17-17--17-15-----------------|
D|15-15-15--------18-17-----------|
A|--------------------------------|
E|--------------------------------|

Pre chorus

e|----------------|
B|----------------|
G|----------------|
D|----------------|
A|-3-----3-3--3-4-|
E|--4-1-----4-----|

2nd guitar

e|-----------------|
B|-----------------|
G|-555555--999999--|
D|-555555--999999--|
A|-333333--777777--|
E|-----------------|

Chorus

e|--------------------------------|
B|--------------------------------|
G|--------------------------------|
D|--------------------------------|
A|-----------------4-3--------4-3-|
E|-1-1-1-1-1-4-4-4-----3--1-4----4|

e|----------------------|
B|----------------------|
G|-10-10-10-10-10-11----|
D|-10-10-10-10-10-11----|
A|--8--8--8--8--8--9----|
E|----------------------|

e|----------------------|
B|----------------------|
G|-10-10-10-10-10-11----|
D|-10-10-10-10-10-11----|
A|--8--8--8--8--8--9----|
E|----------------------|

e|--------------------------------|
B|--------------------------------|
G|--------------------------------|
D|--------------------------------|
A|-----------------4-3--------4-3-|
E|-1-1-1-1-1-4-4-4-----3--1-4----4|

e|----------------------|
B|----------------------|
G|-10-10-10-10-10-11----|
D|-10-10-10-10-10-11----|
A|--8--8--8--8--8--9----|
E|----------------------|

2nd verse 1st guitar

e|-----------------------|
B|-----------------------|
G|-10-6-5--6-6-8-9-12-10-|
D|-10-6-5--6-6-8-9-12-10-|
A|--8-4-3--4-4-6-7-10--8-|
E|-----------------------|

2nd guitar

e|-13-13-13-13-13-------------|
B|-13-13-13-13-13-13----------|
G|-------------------15-13-12-|
D|----------------------------|
A|----------------------------|
E|----------------------------|

Ending

1st guitar

e|--------------------------------------------|
B|--------------------------------------------| G|-1010101010101010101010101010101010---------| D|-1010101010101010101010101010101010---------| A|-8-8-8-8-8-8-8-8-8-8-8-8-8-8-8-8-8----------|
E|--------------------------------------------|

2nd

e|--------------------------------------------|
B|--------------------------------------------| G|-1010101010101010101010101010101010---------| D|-1010101010101010101010101010101010---------| A|-8-8-8-8-8-8-8-8-8-8-8-8-8-8-8-8-8----------|

Chcete zde mít kromě akordů i taby?

13. srpna 2007 v 0:01 | Martin Novák |  Ankety
Určitě jste si všimli, že je tu sekce Akordy, kterou občas doplním. Zajímalo by mě, jestli kromě nich chcete i TABY, v nové sekci. Sice na kytaru nehraju, ale akordy chápu, tak taby teda vůbec, ale na stránce, ze které čerpám akordy (ultimate-guitar) se nacházejí i taby, dokonce ve větším počtu. Není problém to sem dát také, aby jste nemuseli hledat. Pomocí této ankety (klikněte na název článku) se tedy můžete vyjádřit. Pokud výrazně nepovede Ani jedno, nebo akordy stačí, tak se tu občas objeví nové. Díky za hlasování, pokud máte něco na srdci, opět využijte diskuzi :)

PS: pro ty, co nevědí o co se jedná - na song Brianstorm vyjdou první taby zítra ;)

Světové stránky o AM

3. srpna 2007 v 0:01 | Martin Novák
www.certainromance.yoyo.pl/
(Polské stránky - doporučuju)

http://www.arctic-monkeys-france.com/
(Francouzské stránky

http://musique.ados.fr/Arctic-Monkeys.html
(opět Francouzské stránky)

http://www.playpaper.nl/category/arcticmonkeysnl
(Nizozemské stránky)

http://freemonkeys.daa.jp
(Japonské stránky, nezobrazí se vám správné, důvodem je rozdílné písmo)

http://www.arcticmonkeys.de/
(Německé stránky - né moc aktualizované)

http://www.arcticmonkeys.it/
(Italské stránky)


Britské weby o AM

1. srpna 2007 v 0:01 | Martin Novák
http://www.arctic-monkeys.com/
(jednoznačně nejlepší stránka o AM)

http://www.mardy-bum.com/
(taktéž velice kvalitní)

http://www.ritztorubble.com/
(další kvalitní web)

http://www.a-monkeys.net/
(velice pěkné stránky)

www.artexmonkey.co.uk
(předělaný AM :D)

http://arcticmonkeys.trinitystreetdirect.com/
(obchod s věcma AM)

www.nme.com/artists/arctic-monkeys
(stránka na časopisu NME)

http://www.purevolume.com/arcticmonkeys
(stránka na pure volume)